ISO-10303-21;
HEADER;
/* Generated by software containing ST-Developer
 * from STEP Tools, Inc. (www.steptools.com) 
 */

FILE_DESCRIPTION(
/* description */ (''),
/* implementation_level */ '2;1');

FILE_NAME(
/* name */ '',
/* time_stamp */ '2025-07-24T09:33:18+07:00',
/* author */ ('zeta-86'),
/* organization */ (''),
/* preprocessor_version */ 'ST-DEVELOPER v19.2',
/* originating_system */ 'Autodesk Inventor 2024',
/* authorisation */ '');

FILE_SCHEMA (('AUTOMOTIVE_DESIGN { 1 0 10303 214 3 1 1 }'));
ENDSEC;

DATA;
#10=MECHANICAL_DESIGN_GEOMETRIC_PRESENTATION_REPRESENTATION('',(#13),#460);
#11=SHAPE_REPRESENTATION_RELATIONSHIP('SRR','None',#467,#12);
#12=ADVANCED_BREP_SHAPE_REPRESENTATION('',(#14),#459);
#13=STYLED_ITEM('',(#476),#14);
#14=MANIFOLD_SOLID_BREP('\X2\04220432043504400434043E0435\X0\ \X2\04420435043B043E\X0\2',
#221);
#15=TOROIDAL_SURFACE('',#273,10.1,0.75);
#16=(
BOUNDED_CURVE()
B_SPLINE_CURVE(2,(#452,#453,#454),.UNSPECIFIED.,.F.,.F.)
B_SPLINE_CURVE_WITH_KNOTS((3,3),(1.29946374750792,1.38702781193481),
 .UNSPECIFIED.)
CURVE()
GEOMETRIC_REPRESENTATION_ITEM()
RATIONAL_B_SPLINE_CURVE((0.999999997981281,0.997297524405239,0.996509477752809))
REPRESENTATION_ITEM('')
);
#17=(
BOUNDED_SURFACE()
B_SPLINE_SURFACE(2,2,((#425,#426,#427,#428,#429,#430,#431,#432,#433),(#434,
#435,#436,#437,#438,#439,#440,#441,#442),(#443,#444,#445,#446,#447,#448,
#449,#450,#451)),.UNSPECIFIED.,.F.,.T.,.F.)
B_SPLINE_SURFACE_WITH_KNOTS((3,3),(3,2,2,2,3),(1.29946371480322,1.54668091595792),
(-3.14159265358979,-1.5707963267949,0.,1.5707963267949,3.14159265358979),
 .UNSPECIFIED.)
GEOMETRIC_REPRESENTATION_ITEM()
RATIONAL_B_SPLINE_SURFACE(((1.,0.707106781186548,1.,0.707106781186548,1.,
0.707106781186548,1.,0.707106781186548,1.),(0.992370179081982,0.701711683076178,
0.992370179081982,0.701711683076178,0.992370179081982,0.701711683076178,
0.992370179081982,0.701711683076178,0.992370179081982),(1.,0.707106781186548,
1.,0.707106781186548,1.,0.707106781186548,1.,0.707106781186548,1.)))
REPRESENTATION_ITEM('')
SURFACE()
);
#18=CONICAL_SURFACE('',#259,8.45,0.785398163397446);
#19=CONICAL_SURFACE('',#263,9.775,0.785398163397448);
#20=CONICAL_SURFACE('',#269,9.775,0.785398163397448);
#21=B_SPLINE_CURVE_WITH_KNOTS('',3,(#367,#368,#369,#370,#371,#372),
 .UNSPECIFIED.,.F.,.F.,(4,2,4),(-12.853810055235,-12.1425459036104,-11.4312816335818),
 .UNSPECIFIED.);
#22=B_SPLINE_CURVE_WITH_KNOTS('',3,(#377,#378,#379,#380,#381,#382),
 .UNSPECIFIED.,.F.,.F.,(4,2,4),(11.4312816330813,12.142545903607,12.8538100557287),
 .UNSPECIFIED.);
#23=B_SPLINE_CURVE_WITH_KNOTS('',3,(#386,#387,#388,#389),.UNSPECIFIED.,
 .F.,.F.,(4,4),(4.02344854645881,4.10993848043863),.UNSPECIFIED.);
#24=B_SPLINE_CURVE_WITH_KNOTS('',3,(#390,#391,#392,#393),.UNSPECIFIED.,
 .F.,.F.,(4,4),(1.27119222890403,1.44543317376537),.UNSPECIFIED.);
#25=B_SPLINE_CURVE_WITH_KNOTS('',3,(#394,#395,#396,#397),.UNSPECIFIED.,
 .F.,.F.,(4,4),(4.10993848043863,4.19624638229724),.UNSPECIFIED.);
#26=LINE('',#360,#32);
#27=LINE('',#400,#33);
#28=LINE('',#409,#34);
#29=LINE('',#416,#35);
#30=LINE('',#418,#36);
#31=LINE('',#423,#37);
#32=VECTOR('',#293,9.35);
#33=VECTOR('',#310,8.45);
#34=VECTOR('',#321,9.775);
#35=VECTOR('',#330,10.2);
#36=VECTOR('',#333,9.775);
#37=VECTOR('',#338,11.);
#38=CYLINDRICAL_SURFACE('',#249,9.35);
#39=CYLINDRICAL_SURFACE('',#258,35.2040689407374);
#40=CYLINDRICAL_SURFACE('',#266,10.2);
#41=CYLINDRICAL_SURFACE('',#270,11.);
#42=FACE_BOUND('',#59,.T.);
#43=FACE_BOUND('',#67,.T.);
#44=FACE_OUTER_BOUND('',#58,.T.);
#45=FACE_OUTER_BOUND('',#60,.T.);
#46=FACE_OUTER_BOUND('',#61,.T.);
#47=FACE_OUTER_BOUND('',#62,.T.);
#48=FACE_OUTER_BOUND('',#63,.T.);
#49=FACE_OUTER_BOUND('',#64,.T.);
#50=FACE_OUTER_BOUND('',#65,.T.);
#51=FACE_OUTER_BOUND('',#66,.T.);
#52=FACE_OUTER_BOUND('',#68,.T.);
#53=FACE_OUTER_BOUND('',#69,.T.);
#54=FACE_OUTER_BOUND('',#70,.T.);
#55=FACE_OUTER_BOUND('',#71,.T.);
#56=FACE_OUTER_BOUND('',#72,.T.);
#57=FACE_OUTER_BOUND('',#73,.T.);
#58=EDGE_LOOP('',(#142));
#59=EDGE_LOOP('',(#143));
#60=EDGE_LOOP('',(#144));
#61=EDGE_LOOP('',(#145,#146,#147,#148,#149,#150));
#62=EDGE_LOOP('',(#151,#152));
#63=EDGE_LOOP('',(#153,#154));
#64=EDGE_LOOP('',(#155,#156,#157,#158,#159));
#65=EDGE_LOOP('',(#160,#161,#162,#163));
#66=EDGE_LOOP('',(#164));
#67=EDGE_LOOP('',(#165));
#68=EDGE_LOOP('',(#166,#167,#168,#169,#170));
#69=EDGE_LOOP('',(#171,#172,#173,#174,#175,#176));
#70=EDGE_LOOP('',(#177,#178,#179,#180,#181,#182));
#71=EDGE_LOOP('',(#183,#184,#185,#186,#187));
#72=EDGE_LOOP('',(#188,#189,#190,#191,#192,#193,#194,#195,#196));
#73=EDGE_LOOP('',(#197,#198,#199,#200,#201));
#74=CIRCLE('',#245,11.);
#75=CIRCLE('',#246,10.7275812483765);
#76=CIRCLE('',#248,8.2);
#77=CIRCLE('',#250,9.35);
#78=CIRCLE('',#251,9.35);
#79=CIRCLE('',#252,9.35);
#80=CIRCLE('',#253,9.35);
#81=CIRCLE('',#255,35.2040689407374);
#82=CIRCLE('',#257,35.2040689407374);
#83=CIRCLE('',#260,8.7);
#84=CIRCLE('',#262,9.35);
#85=CIRCLE('',#264,10.2);
#86=CIRCLE('',#265,10.2);
#87=CIRCLE('',#267,10.2);
#88=CIRCLE('',#268,10.2);
#89=CIRCLE('',#271,11.);
#90=CIRCLE('',#272,11.);
#91=CIRCLE('',#274,0.75);
#92=VERTEX_POINT('',#347);
#93=VERTEX_POINT('',#349);
#94=VERTEX_POINT('',#352);
#95=VERTEX_POINT('',#355);
#96=VERTEX_POINT('',#356);
#97=VERTEX_POINT('',#359);
#98=VERTEX_POINT('',#361);
#99=VERTEX_POINT('',#365);
#100=VERTEX_POINT('',#366);
#101=VERTEX_POINT('',#375);
#102=VERTEX_POINT('',#376);
#103=VERTEX_POINT('',#385);
#104=VERTEX_POINT('',#399);
#105=VERTEX_POINT('',#403);
#106=VERTEX_POINT('',#406);
#107=VERTEX_POINT('',#407);
#108=VERTEX_POINT('',#412);
#109=VERTEX_POINT('',#413);
#110=VERTEX_POINT('',#420);
#111=VERTEX_POINT('',#421);
#112=EDGE_CURVE('',#92,#92,#74,.T.);
#113=EDGE_CURVE('',#93,#93,#75,.T.);
#114=EDGE_CURVE('',#94,#94,#76,.T.);
#115=EDGE_CURVE('',#95,#96,#77,.T.);
#116=EDGE_CURVE('',#96,#95,#78,.T.);
#117=EDGE_CURVE('',#96,#97,#26,.T.);
#118=EDGE_CURVE('',#97,#98,#79,.T.);
#119=EDGE_CURVE('',#98,#97,#80,.T.);
#120=EDGE_CURVE('',#99,#100,#21,.T.);
#121=EDGE_CURVE('',#100,#99,#81,.T.);
#122=EDGE_CURVE('',#101,#102,#22,.T.);
#123=EDGE_CURVE('',#102,#101,#82,.T.);
#124=EDGE_CURVE('',#102,#103,#23,.T.);
#125=EDGE_CURVE('',#100,#101,#24,.T.);
#126=EDGE_CURVE('',#103,#99,#25,.T.);
#127=EDGE_CURVE('',#94,#104,#27,.T.);
#128=EDGE_CURVE('',#104,#104,#83,.T.);
#129=EDGE_CURVE('',#105,#105,#84,.T.);
#130=EDGE_CURVE('',#106,#107,#85,.T.);
#131=EDGE_CURVE('',#107,#105,#28,.T.);
#132=EDGE_CURVE('',#107,#106,#86,.T.);
#133=EDGE_CURVE('',#108,#109,#87,.T.);
#134=EDGE_CURVE('',#109,#108,#88,.T.);
#135=EDGE_CURVE('',#109,#106,#29,.T.);
#136=EDGE_CURVE('',#108,#98,#30,.T.);
#137=EDGE_CURVE('',#110,#111,#89,.T.);
#138=EDGE_CURVE('',#110,#92,#31,.T.);
#139=EDGE_CURVE('',#111,#110,#90,.T.);
#140=EDGE_CURVE('',#111,#103,#16,.T.);
#141=EDGE_CURVE('',#95,#93,#91,.T.);
#142=ORIENTED_EDGE('',*,*,#112,.F.);
#143=ORIENTED_EDGE('',*,*,#113,.T.);
#144=ORIENTED_EDGE('',*,*,#114,.F.);
#145=ORIENTED_EDGE('',*,*,#115,.F.);
#146=ORIENTED_EDGE('',*,*,#116,.F.);
#147=ORIENTED_EDGE('',*,*,#117,.T.);
#148=ORIENTED_EDGE('',*,*,#118,.T.);
#149=ORIENTED_EDGE('',*,*,#119,.T.);
#150=ORIENTED_EDGE('',*,*,#117,.F.);
#151=ORIENTED_EDGE('',*,*,#120,.F.);
#152=ORIENTED_EDGE('',*,*,#121,.F.);
#153=ORIENTED_EDGE('',*,*,#122,.F.);
#154=ORIENTED_EDGE('',*,*,#123,.F.);
#155=ORIENTED_EDGE('',*,*,#124,.F.);
#156=ORIENTED_EDGE('',*,*,#123,.T.);
#157=ORIENTED_EDGE('',*,*,#125,.F.);
#158=ORIENTED_EDGE('',*,*,#121,.T.);
#159=ORIENTED_EDGE('',*,*,#126,.F.);
#160=ORIENTED_EDGE('',*,*,#114,.T.);
#161=ORIENTED_EDGE('',*,*,#127,.T.);
#162=ORIENTED_EDGE('',*,*,#128,.T.);
#163=ORIENTED_EDGE('',*,*,#127,.F.);
#164=ORIENTED_EDGE('',*,*,#129,.F.);
#165=ORIENTED_EDGE('',*,*,#128,.F.);
#166=ORIENTED_EDGE('',*,*,#130,.T.);
#167=ORIENTED_EDGE('',*,*,#131,.T.);
#168=ORIENTED_EDGE('',*,*,#129,.T.);
#169=ORIENTED_EDGE('',*,*,#131,.F.);
#170=ORIENTED_EDGE('',*,*,#132,.T.);
#171=ORIENTED_EDGE('',*,*,#133,.F.);
#172=ORIENTED_EDGE('',*,*,#134,.F.);
#173=ORIENTED_EDGE('',*,*,#135,.T.);
#174=ORIENTED_EDGE('',*,*,#132,.F.);
#175=ORIENTED_EDGE('',*,*,#130,.F.);
#176=ORIENTED_EDGE('',*,*,#135,.F.);
#177=ORIENTED_EDGE('',*,*,#133,.T.);
#178=ORIENTED_EDGE('',*,*,#134,.T.);
#179=ORIENTED_EDGE('',*,*,#136,.T.);
#180=ORIENTED_EDGE('',*,*,#118,.F.);
#181=ORIENTED_EDGE('',*,*,#119,.F.);
#182=ORIENTED_EDGE('',*,*,#136,.F.);
#183=ORIENTED_EDGE('',*,*,#137,.F.);
#184=ORIENTED_EDGE('',*,*,#138,.T.);
#185=ORIENTED_EDGE('',*,*,#112,.T.);
#186=ORIENTED_EDGE('',*,*,#138,.F.);
#187=ORIENTED_EDGE('',*,*,#139,.F.);
#188=ORIENTED_EDGE('',*,*,#140,.T.);
#189=ORIENTED_EDGE('',*,*,#126,.T.);
#190=ORIENTED_EDGE('',*,*,#120,.T.);
#191=ORIENTED_EDGE('',*,*,#125,.T.);
#192=ORIENTED_EDGE('',*,*,#122,.T.);
#193=ORIENTED_EDGE('',*,*,#124,.T.);
#194=ORIENTED_EDGE('',*,*,#140,.F.);
#195=ORIENTED_EDGE('',*,*,#139,.T.);
#196=ORIENTED_EDGE('',*,*,#137,.T.);
#197=ORIENTED_EDGE('',*,*,#115,.T.);
#198=ORIENTED_EDGE('',*,*,#116,.T.);
#199=ORIENTED_EDGE('',*,*,#141,.T.);
#200=ORIENTED_EDGE('',*,*,#113,.F.);
#201=ORIENTED_EDGE('',*,*,#141,.F.);
#202=PLANE('',#244);
#203=PLANE('',#247);
#204=PLANE('',#254);
#205=PLANE('',#256);
#206=PLANE('',#261);
#207=ADVANCED_FACE('',(#44,#42),#202,.F.);
#208=ADVANCED_FACE('',(#45),#203,.F.);
#209=ADVANCED_FACE('',(#46),#38,.T.);
#210=ADVANCED_FACE('',(#47),#204,.F.);
#211=ADVANCED_FACE('',(#48),#205,.T.);
#212=ADVANCED_FACE('',(#49),#39,.F.);
#213=ADVANCED_FACE('',(#50),#18,.F.);
#214=ADVANCED_FACE('',(#51,#43),#206,.T.);
#215=ADVANCED_FACE('',(#52),#19,.T.);
#216=ADVANCED_FACE('',(#53),#40,.T.);
#217=ADVANCED_FACE('',(#54),#20,.T.);
#218=ADVANCED_FACE('',(#55),#41,.T.);
#219=ADVANCED_FACE('',(#56),#17,.F.);
#220=ADVANCED_FACE('',(#57),#15,.T.);
#221=CLOSED_SHELL('',(#207,#208,#209,#210,#211,#212,#213,#214,#215,#216,
#217,#218,#219,#220));
#222=DERIVED_UNIT_ELEMENT(#225,1.);
#223=DERIVED_UNIT_ELEMENT(#462,-3.);
#224=DIMENSIONAL_EXPONENTS(0.,1.,0.,0.,0.,0.,0.);
#225=(
CONVERSION_BASED_UNIT('gram',#227)
MASS_UNIT()
NAMED_UNIT(#224)
);
#226=(
MASS_UNIT()
NAMED_UNIT(*)
SI_UNIT(.KILO.,.GRAM.)
);
#227=MASS_MEASURE_WITH_UNIT(MASS_MEASURE(0.001),#226);
#228=DERIVED_UNIT((#222,#223));
#229=MEASURE_REPRESENTATION_ITEM('density measure',
POSITIVE_RATIO_MEASURE(1.),#228);
#230=PROPERTY_DEFINITION_REPRESENTATION(#235,#232);
#231=PROPERTY_DEFINITION_REPRESENTATION(#236,#233);
#232=REPRESENTATION('material name',(#234),#459);
#233=REPRESENTATION('density',(#229),#459);
#234=DESCRIPTIVE_REPRESENTATION_ITEM('\X2\04220438043F043E0432044B0435\X0\',
'\X2\04220438043F043E0432044B0435\X0\');
#235=PROPERTY_DEFINITION('material property','material name',#469);
#236=PROPERTY_DEFINITION('material property','density of part',#469);
#237=DATE_TIME_ROLE('creation_date');
#238=APPLIED_DATE_AND_TIME_ASSIGNMENT(#239,#237,(#469));
#239=DATE_AND_TIME(#240,#241);
#240=CALENDAR_DATE(2023,9,10);
#241=LOCAL_TIME(11,33,49.,#242);
#242=COORDINATED_UNIVERSAL_TIME_OFFSET(0,0,.BEHIND.);
#243=AXIS2_PLACEMENT_3D('',#345,#275,#276);
#244=AXIS2_PLACEMENT_3D('',#346,#277,#278);
#245=AXIS2_PLACEMENT_3D('',#348,#279,#280);
#246=AXIS2_PLACEMENT_3D('',#350,#281,#282);
#247=AXIS2_PLACEMENT_3D('',#351,#283,#284);
#248=AXIS2_PLACEMENT_3D('',#353,#285,#286);
#249=AXIS2_PLACEMENT_3D('',#354,#287,#288);
#250=AXIS2_PLACEMENT_3D('',#357,#289,#290);
#251=AXIS2_PLACEMENT_3D('',#358,#291,#292);
#252=AXIS2_PLACEMENT_3D('',#362,#294,#295);
#253=AXIS2_PLACEMENT_3D('',#363,#296,#297);
#254=AXIS2_PLACEMENT_3D('',#364,#298,#299);
#255=AXIS2_PLACEMENT_3D('',#373,#300,#301);
#256=AXIS2_PLACEMENT_3D('',#374,#302,#303);
#257=AXIS2_PLACEMENT_3D('',#383,#304,#305);
#258=AXIS2_PLACEMENT_3D('',#384,#306,#307);
#259=AXIS2_PLACEMENT_3D('',#398,#308,#309);
#260=AXIS2_PLACEMENT_3D('',#401,#311,#312);
#261=AXIS2_PLACEMENT_3D('',#402,#313,#314);
#262=AXIS2_PLACEMENT_3D('',#404,#315,#316);
#263=AXIS2_PLACEMENT_3D('',#405,#317,#318);
#264=AXIS2_PLACEMENT_3D('',#408,#319,#320);
#265=AXIS2_PLACEMENT_3D('',#410,#322,#323);
#266=AXIS2_PLACEMENT_3D('',#411,#324,#325);
#267=AXIS2_PLACEMENT_3D('',#414,#326,#327);
#268=AXIS2_PLACEMENT_3D('',#415,#328,#329);
#269=AXIS2_PLACEMENT_3D('',#417,#331,#332);
#270=AXIS2_PLACEMENT_3D('',#419,#334,#335);
#271=AXIS2_PLACEMENT_3D('',#422,#336,#337);
#272=AXIS2_PLACEMENT_3D('',#424,#339,#340);
#273=AXIS2_PLACEMENT_3D('',#455,#341,#342);
#274=AXIS2_PLACEMENT_3D('',#456,#343,#344);
#275=DIRECTION('axis',(0.,0.,1.));
#276=DIRECTION('refdir',(1.,0.,0.));
#277=DIRECTION('center_axis',(0.,1.,0.));
#278=DIRECTION('ref_axis',(0.,0.,1.));
#279=DIRECTION('center_axis',(0.,1.,0.));
#280=DIRECTION('ref_axis',(1.,0.,0.));
#281=DIRECTION('center_axis',(-3.06161699786838E-17,1.,3.06161699786838E-17));
#282=DIRECTION('ref_axis',(0.,3.06161699786838E-17,-1.));
#283=DIRECTION('center_axis',(0.,1.,0.));
#284=DIRECTION('ref_axis',(0.,0.,1.));
#285=DIRECTION('center_axis',(0.,1.,0.));
#286=DIRECTION('ref_axis',(1.,0.,0.));
#287=DIRECTION('center_axis',(0.,1.,0.));
#288=DIRECTION('ref_axis',(-1.,0.,0.));
#289=DIRECTION('center_axis',(0.,1.,0.));
#290=DIRECTION('ref_axis',(-1.,0.,0.));
#291=DIRECTION('center_axis',(0.,1.,0.));
#292=DIRECTION('ref_axis',(-1.,0.,0.));
#293=DIRECTION('',(0.,-1.,0.));
#294=DIRECTION('center_axis',(0.,1.,0.));
#295=DIRECTION('ref_axis',(1.,0.,0.));
#296=DIRECTION('center_axis',(0.,1.,0.));
#297=DIRECTION('ref_axis',(1.,0.,0.));
#298=DIRECTION('center_axis',(1.,0.,0.));
#299=DIRECTION('ref_axis',(0.,0.,-1.));
#300=DIRECTION('center_axis',(1.,0.,0.));
#301=DIRECTION('ref_axis',(0.,1.,0.));
#302=DIRECTION('center_axis',(1.,0.,0.));
#303=DIRECTION('ref_axis',(0.,0.,-1.));
#304=DIRECTION('center_axis',(-1.,0.,0.));
#305=DIRECTION('ref_axis',(0.,1.,0.));
#306=DIRECTION('center_axis',(1.,0.,0.));
#307=DIRECTION('ref_axis',(0.,-0.999999997898961,-6.48234349603024E-5));
#308=DIRECTION('center_axis',(0.,-1.,0.));
#309=DIRECTION('ref_axis',(1.,0.,0.));
#310=DIRECTION('',(-0.707106781186546,-0.707106781186549,-8.65956056235491E-17));
#311=DIRECTION('center_axis',(0.,-1.,0.));
#312=DIRECTION('ref_axis',(1.,0.,0.));
#313=DIRECTION('center_axis',(0.,-1.,0.));
#314=DIRECTION('ref_axis',(0.,0.,-1.));
#315=DIRECTION('center_axis',(0.,1.,0.));
#316=DIRECTION('ref_axis',(1.,0.,0.));
#317=DIRECTION('center_axis',(0.,1.,0.));
#318=DIRECTION('ref_axis',(1.,0.,0.));
#319=DIRECTION('center_axis',(0.,-1.,0.));
#320=DIRECTION('ref_axis',(1.,0.,0.));
#321=DIRECTION('',(0.707106781186547,-0.707106781186548,-8.65956056235493E-17));
#322=DIRECTION('center_axis',(0.,-1.,0.));
#323=DIRECTION('ref_axis',(1.,0.,0.));
#324=DIRECTION('center_axis',(0.,1.,0.));
#325=DIRECTION('ref_axis',(-1.,0.,0.));
#326=DIRECTION('center_axis',(0.,1.,0.));
#327=DIRECTION('ref_axis',(1.,0.,0.));
#328=DIRECTION('center_axis',(0.,1.,0.));
#329=DIRECTION('ref_axis',(1.,0.,0.));
#330=DIRECTION('',(0.,-1.,0.));
#331=DIRECTION('center_axis',(0.,-1.,0.));
#332=DIRECTION('ref_axis',(1.,0.,0.));
#333=DIRECTION('',(0.707106781186547,0.707106781186548,8.65956056235493E-17));
#334=DIRECTION('center_axis',(0.,1.,0.));
#335=DIRECTION('ref_axis',(-1.,0.,0.));
#336=DIRECTION('center_axis',(0.,1.,0.));
#337=DIRECTION('ref_axis',(1.,0.,0.));
#338=DIRECTION('',(0.,-1.,0.));
#339=DIRECTION('center_axis',(0.,1.,0.));
#340=DIRECTION('ref_axis',(1.,0.,0.));
#341=DIRECTION('center_axis',(6.12323399573677E-17,-1.,-6.12323399573677E-17));
#342=DIRECTION('ref_axis',(6.37769407178219E-13,6.13948216382575E-17,-1.));
#343=DIRECTION('center_axis',(-1.,-6.12323399573286E-17,-6.37892196821495E-13));
#344=DIRECTION('ref_axis',(-6.37892196821496E-13,-5.11623513652146E-17,
1.));
#345=CARTESIAN_POINT('',(0.,0.,0.));
#346=CARTESIAN_POINT('Origin',(-7.29765750644232,-1.31380768444121,0.));
#347=CARTESIAN_POINT('',(3.70234249355768,-1.31380768444121,-1.34711147906209E-15));
#348=CARTESIAN_POINT('Origin',(-7.29765750644232,-1.31380768444121,0.));
#349=CARTESIAN_POINT('',(-7.29765750644232,-1.31380768444121,10.7275812483765));
#350=CARTESIAN_POINT('Origin',(-7.29765750644232,-1.31380768444121,1.25728416226865E-17));
#351=CARTESIAN_POINT('Origin',(-7.29765750644232,-7.31380768444122,0.));
#352=CARTESIAN_POINT('',(-15.4976575064423,-7.31380768444122,1.00421037530083E-15));
#353=CARTESIAN_POINT('Origin',(-7.29765750644232,-7.31380768444122,0.));
#354=CARTESIAN_POINT('Origin',(-7.29765750644232,-1.81380768444121,0.));
#355=CARTESIAN_POINT('',(-7.29765750644829,-1.72446785622103,9.35));
#356=CARTESIAN_POINT('',(2.05234249355768,-1.72446785622103,-1.14504475720278E-15));
#357=CARTESIAN_POINT('Origin',(-7.29765750644232,-1.72446785622103,8.30224721356841E-33));
#358=CARTESIAN_POINT('Origin',(-7.29765750644232,-1.72446785622103,8.30224721356841E-33));
#359=CARTESIAN_POINT('',(2.05234249355768,-2.81380768444121,-1.14504475720278E-15));
#360=CARTESIAN_POINT('',(2.05234249355768,-1.81380768444121,-1.14504475720278E-15));
#361=CARTESIAN_POINT('',(-16.6476575064423,-2.81380768444121,0.));
#362=CARTESIAN_POINT('Origin',(-7.29765750644232,-2.81380768444121,0.));
#363=CARTESIAN_POINT('Origin',(-7.29765750644232,-2.81380768444121,0.));
#364=CARTESIAN_POINT('Origin',(-6.29765750644232,35.3902594221742,0.));
#365=CARTESIAN_POINT('',(-6.29765750644232,0.98883443095557,-7.47451861712519));
#366=CARTESIAN_POINT('',(-6.29765750644232,0.98883443095557,7.47451861712519));
#367=CARTESIAN_POINT('Ctrl Pts',(-6.29765750644232,0.988834430955084,-7.4745186171251));
#368=CARTESIAN_POINT('Ctrl Pts',(-6.29765750644232,1.45879223416645,-4.9366795506205));
#369=CARTESIAN_POINT('Ctrl Pts',(-6.29765750640318,1.67427258870692,-2.37088114989527));
#370=CARTESIAN_POINT('Ctrl Pts',(-6.29765750640318,1.67427266314854,2.37088025561555));
#371=CARTESIAN_POINT('Ctrl Pts',(-6.29765750644232,1.45879231363577,4.93667912207336));
#372=CARTESIAN_POINT('Ctrl Pts',(-6.29765750644232,0.98883443093833,7.474518617122));
#373=CARTESIAN_POINT('Origin',(-6.29765750644232,35.3902594221742,0.));
#374=CARTESIAN_POINT('Origin',(-8.29765750644232,35.3902594221742,0.));
#375=CARTESIAN_POINT('',(-8.29765750644232,0.98883443095557,7.47451861712519));
#376=CARTESIAN_POINT('',(-8.29765750644232,0.98883443095557,-7.47451861712519));
#377=CARTESIAN_POINT('Ctrl Pts',(-8.29765750644232,0.988834430936124,7.47451861712159));
#378=CARTESIAN_POINT('Ctrl Pts',(-8.29765750644232,1.45879231373242,4.93667912155762));
#379=CARTESIAN_POINT('Ctrl Pts',(-8.29765750640318,1.67427266646028,2.37088025727239));
#380=CARTESIAN_POINT('Ctrl Pts',(-8.29765750640318,1.67427259201865,-2.3708811515521));
#381=CARTESIAN_POINT('Ctrl Pts',(-8.29765750644232,1.4587922342631,-4.93667955010475));
#382=CARTESIAN_POINT('Ctrl Pts',(-8.29765750644232,0.988834430952884,-7.47451861712468));
#383=CARTESIAN_POINT('Origin',(-8.29765750644232,35.3902594221742,0.));
#384=CARTESIAN_POINT('Origin',(-7.29765750644232,35.3902594221742,0.));
#385=CARTESIAN_POINT('',(-7.29765737380526,0.995522048559002,-7.50523224052591));
#386=CARTESIAN_POINT('Ctrl Pts',(-8.29765750644198,0.988834430954081,-7.47451861711826));
#387=CARTESIAN_POINT('Ctrl Pts',(-7.96535737680246,0.993279032285229,-7.49497486683034));
#388=CARTESIAN_POINT('Ctrl Pts',(-7.63168293812221,0.995522049151379,-7.50523224324064));
#389=CARTESIAN_POINT('Ctrl Pts',(-7.29765737380525,0.995522048559003,-7.50523224052591));
#390=CARTESIAN_POINT('Ctrl Pts',(-6.29765750644517,0.988834430945987,7.47451861708101));
#391=CARTESIAN_POINT('Ctrl Pts',(-6.96124425552065,0.997710077643987,7.51536872526485));
#392=CARTESIAN_POINT('Ctrl Pts',(-7.63061648422061,0.997756279452283,7.51558136879739));
#393=CARTESIAN_POINT('Ctrl Pts',(-8.29765750643911,0.988834430944762,7.47451861707537));
#394=CARTESIAN_POINT('Ctrl Pts',(-7.29765737380525,0.995522048559003,-7.50523224052591));
#395=CARTESIAN_POINT('Ctrl Pts',(-6.96433482056964,0.995522047967873,-7.5052322378169));
#396=CARTESIAN_POINT('Ctrl Pts',(-6.63066262110467,0.993288461659426,-7.4950182654664));
#397=CARTESIAN_POINT('Ctrl Pts',(-6.29765750331321,0.988834430913454,-7.47451861693128));
#398=CARTESIAN_POINT('Origin',(-7.29765750644232,-7.56380768444122,0.));
#399=CARTESIAN_POINT('',(-15.9976575064423,-7.81380768444122,-1.0654427152582E-15));
#400=CARTESIAN_POINT('',(-15.7476575064423,-7.56380768444122,-1.03482654527951E-15));
#401=CARTESIAN_POINT('Origin',(-7.29765750644232,-7.81380768444122,0.));
#402=CARTESIAN_POINT('Origin',(-17.4976575064423,-7.81380768444122,0.));
#403=CARTESIAN_POINT('',(-16.6476575064423,-7.81380768444122,1.14504475720278E-15));
#404=CARTESIAN_POINT('Origin',(-7.29765750644232,-7.81380768444122,0.));
#405=CARTESIAN_POINT('Origin',(-7.29765750644232,-7.38880768444122,0.));
#406=CARTESIAN_POINT('',(2.90234249355768,-6.96380768444122,-1.2491397351303E-15));
#407=CARTESIAN_POINT('',(-17.4976575064423,-6.96380768444122,1.2491397351303E-15));
#408=CARTESIAN_POINT('Origin',(-7.29765750644232,-6.96380768444122,0.));
#409=CARTESIAN_POINT('',(-17.0726575064423,-7.38880768444122,1.19709224616654E-15));
#410=CARTESIAN_POINT('Origin',(-7.29765750644232,-6.96380768444122,0.));
#411=CARTESIAN_POINT('Origin',(-7.29765750644232,-5.31380768444122,0.));
#412=CARTESIAN_POINT('',(-17.4976575064423,-3.66380768444122,1.2491397351303E-15));
#413=CARTESIAN_POINT('',(2.90234249355768,-3.66380768444122,-1.2491397351303E-15));
#414=CARTESIAN_POINT('Origin',(-7.29765750644232,-3.66380768444122,0.));
#415=CARTESIAN_POINT('Origin',(-7.29765750644232,-3.66380768444122,0.));
#416=CARTESIAN_POINT('',(2.90234249355768,-5.31380768444122,-1.2491397351303E-15));
#417=CARTESIAN_POINT('Origin',(-7.29765750644232,-3.23880768444122,0.));
#418=CARTESIAN_POINT('',(-17.0726575064423,-3.23880768444122,-1.19709224616654E-15));
#419=CARTESIAN_POINT('Origin',(-7.29765750644232,-0.563807684441213,0.));
#420=CARTESIAN_POINT('',(3.70234249355768,0.186192315558786,-1.34711147906209E-15));
#421=CARTESIAN_POINT('',(-7.29765737646338,0.18619231559418,-11.));
#422=CARTESIAN_POINT('Origin',(-7.29765750644232,0.186192315558786,0.));
#423=CARTESIAN_POINT('',(3.70234249355768,-0.563807684441213,-1.34711147906209E-15));
#424=CARTESIAN_POINT('Origin',(-7.29765750644232,0.186192315558786,0.));
#425=CARTESIAN_POINT('Ctrl Pts',(-7.29765737646338,0.186191957125965,-11.0000012885578));
#426=CARTESIAN_POINT('Ctrl Pts',(-18.2976580439031,0.186191993254192,-11.0000012885578));
#427=CARTESIAN_POINT('Ctrl Pts',(-18.2976580439031,0.18619216594485,-6.21118085746157E-7));
#428=CARTESIAN_POINT('Ctrl Pts',(-18.2976580439031,0.186192338635507,11.0000000463216));
#429=CARTESIAN_POINT('Ctrl Pts',(-7.29765737646338,0.18619230250728,11.0000000463216));
#430=CARTESIAN_POINT('Ctrl Pts',(3.70234329097634,0.186192266379053,11.0000000463216));
#431=CARTESIAN_POINT('Ctrl Pts',(3.70234329097635,0.186192093688395,-6.21118084611792E-7));
#432=CARTESIAN_POINT('Ctrl Pts',(3.70234329097634,0.186191920997738,-11.0000012885578));
#433=CARTESIAN_POINT('Ctrl Pts',(-7.29765737646338,0.186191957125965,-11.0000012885578));
#434=CARTESIAN_POINT('Ctrl Pts',(-7.29765737197937,1.55144240553831,-6.09244196820993));
#435=CARTESIAN_POINT('Ctrl Pts',(-13.390098697638,1.55144242554822,-6.09244196820993));
#436=CARTESIAN_POINT('Ctrl Pts',(-13.390098697638,1.55144252119438,-6.42551355836128E-7));
#437=CARTESIAN_POINT('Ctrl Pts',(-13.390098697638,1.55144261684054,6.09244068310722));
#438=CARTESIAN_POINT('Ctrl Pts',(-7.29765737197937,1.55144259683062,6.09244068310722));
#439=CARTESIAN_POINT('Ctrl Pts',(-1.2052160463208,1.5514425768207,6.09244068310722));
#440=CARTESIAN_POINT('Ctrl Pts',(-1.2052160463208,1.55144248117455,-6.4255135520785E-7));
#441=CARTESIAN_POINT('Ctrl Pts',(-1.2052160463208,1.55144238552839,-6.09244196820993));
#442=CARTESIAN_POINT('Ctrl Pts',(-7.29765737197937,1.55144240553831,-6.09244196820993));
#443=CARTESIAN_POINT('Ctrl Pts',(-7.29765737157595,1.67427261513741,-1.00000050961332));
#444=CARTESIAN_POINT('Ctrl Pts',(-8.29765723670959,1.6742726184218,-1.00000050961332));
#445=CARTESIAN_POINT('Ctrl Pts',(-8.29765723670959,1.67427263412096,-6.44479684201262E-7));
#446=CARTESIAN_POINT('Ctrl Pts',(-8.29765723670959,1.67427264982012,0.999999220653949));
#447=CARTESIAN_POINT('Ctrl Pts',(-7.29765737157595,1.67427264653574,0.999999220653949));
#448=CARTESIAN_POINT('Ctrl Pts',(-6.29765750644232,1.67427264325135,0.999999220653949));
#449=CARTESIAN_POINT('Ctrl Pts',(-6.29765750644232,1.67427262755219,-6.44479684098138E-7));
#450=CARTESIAN_POINT('Ctrl Pts',(-6.29765750644232,1.67427261185303,-1.00000050961332));
#451=CARTESIAN_POINT('Ctrl Pts',(-7.29765737157595,1.67427261513741,-1.00000050961332));
#452=CARTESIAN_POINT('Ctrl Pts',(-7.29765737646338,0.186192315591636,-11.0000000000091));
#453=CARTESIAN_POINT('Ctrl Pts',(-7.297657374883,0.667373312561326,-9.27033597570188));
#454=CARTESIAN_POINT('Ctrl Pts',(-7.29765737380523,0.995522048556886,-7.50523224053723));
#455=CARTESIAN_POINT('Origin',(-7.29765750644232,-1.72446785622103,8.30224721356841E-33));
#456=CARTESIAN_POINT('Origin',(-7.29765750644876,-1.72446785622103,10.1));
#457=UNCERTAINTY_MEASURE_WITH_UNIT(LENGTH_MEASURE(0.01),#461,
'DISTANCE_ACCURACY_VALUE',
'Maximum model space distance between geometric entities at asserted c
onnectivities');
#458=UNCERTAINTY_MEASURE_WITH_UNIT(LENGTH_MEASURE(0.01),#461,
'DISTANCE_ACCURACY_VALUE',
'Maximum model space distance between geometric entities at asserted c
onnectivities');
#459=(
GEOMETRIC_REPRESENTATION_CONTEXT(3)
GLOBAL_UNCERTAINTY_ASSIGNED_CONTEXT((#457))
GLOBAL_UNIT_ASSIGNED_CONTEXT((#461,#463,#464))
REPRESENTATION_CONTEXT('','3D')
);
#460=(
GEOMETRIC_REPRESENTATION_CONTEXT(3)
GLOBAL_UNCERTAINTY_ASSIGNED_CONTEXT((#458))
GLOBAL_UNIT_ASSIGNED_CONTEXT((#461,#463,#464))
REPRESENTATION_CONTEXT('','3D')
);
#461=(
LENGTH_UNIT()
NAMED_UNIT(*)
SI_UNIT(.MILLI.,.METRE.)
);
#462=(
LENGTH_UNIT()
NAMED_UNIT(*)
SI_UNIT(.CENTI.,.METRE.)
);
#463=(
NAMED_UNIT(*)
PLANE_ANGLE_UNIT()
SI_UNIT($,.RADIAN.)
);
#464=(
NAMED_UNIT(*)
SI_UNIT($,.STERADIAN.)
SOLID_ANGLE_UNIT()
);
#465=SHAPE_DEFINITION_REPRESENTATION(#466,#467);
#466=PRODUCT_DEFINITION_SHAPE('',$,#469);
#467=SHAPE_REPRESENTATION('',(#243),#459);
#468=PRODUCT_DEFINITION_CONTEXT('part definition',#473,'design');
#469=PRODUCT_DEFINITION('\X2\0414043504420430043B044C\X0\21',
'\X2\04170420\X0\1-\X2\041B0420\X0\-PG13.5 (zeta3',#470,#468);
#470=PRODUCT_DEFINITION_FORMATION('',$,#475);
#471=PRODUCT_RELATED_PRODUCT_CATEGORY('\X2\04170420\X0\1-\X2\041B0420\X0\-
PG13.5 (zeta3','\X2\04170420\X0\1-\X2\041B0420\X0\-PG13.5 (zeta3',(#475));
#472=APPLICATION_PROTOCOL_DEFINITION('international standard',
'automotive_design',2009,#473);
#473=APPLICATION_CONTEXT(
'Core Data for Automotive Mechanical Design Process');
#474=PRODUCT_CONTEXT('part definition',#473,'mechanical');
#475=PRODUCT('\X2\0414043504420430043B044C\X0\21',
'\X2\04170420\X0\1-\X2\041B0420\X0\-PG13.5 (zeta3',$,(#474));
#476=PRESENTATION_STYLE_ASSIGNMENT((#477));
#477=SURFACE_STYLE_USAGE(.BOTH.,#480);
#478=SURFACE_STYLE_RENDERING_WITH_PROPERTIES($,#484,(#479));
#479=SURFACE_STYLE_TRANSPARENT(0.);
#480=SURFACE_SIDE_STYLE('',(#481,#478));
#481=SURFACE_STYLE_FILL_AREA(#482);
#482=FILL_AREA_STYLE('',(#483));
#483=FILL_AREA_STYLE_COLOUR('',#484);
#484=COLOUR_RGB('',0.749019607843137,0.749019607843137,0.749019607843137);
ENDSEC;
END-ISO-10303-21;
